☆ Omega Decay ☆ (lilmissmilitia) wrote in damn_band,
☆ Omega Decay ☆
lilmissmilitia
damn_band

  • Mood:
  • Music:

Buncho tabs

Theres a bunch of tabs in my book that I havn't put up...


e |---------------------------------||
B |---------------------------------||
G |---------------------------------||
D |---2-1-0-------------------------||
A |-----------2-3-2-----------------||
E |-0-------0-------0-3-4-4-3-2-1-0-||
I think this one is a song cliche_boy made, but I (tried) to make it easier to play, with more strings ...


G |-------------------------------------------------------------------||
D |----15-------12-------15-------12------9------10------9------10----||
A |-12----12-15----15-12----12-15----12-9---9-10----10-9---9-10----10-||
E |-------------------------------------------------------------------||
Something labeled "Toxic Hotdogs"...?


G |-----------------------------------------------------------------||
D |---0---0---0---0---2---2---2---2---3---3---3---3---0---0---0---0-||
A |-2---2---2---2---4---4---4---4---5---5---5---5---2---2---2---2---||
E |-----------------------------------------------------------------||
And that just looks like playing with octaves ...


e |-9-9-9-9-9-9-9-9-10-10-10-10-10-10-10-10-9-9-9-9-9-9-9-9-8-8-8--|
B |-9-9-9-9-9-9-9-9-10-10-10-10-10-10-10-10-9-9-9-9-9-9-9-9-8-8-8--|
G |----------------------------------------------------------------|
D |----------------------------------------------------------------|
A |----------------------------------------------------------------|
E |-9-9-9-9-9-9-9-9-10-10-10-10-10-10-10-10-9-9-9-9-9-9-9-9-8-8-8--|

|-8-8-8-8-8-3-3-3-3-3-3-3-3-3-3-3-3-3-3-3-3-3-3-3-3-3-3-3-3-3-3--|
|-8-8-8-8-8-3-3-3-3-3-3-3-3-3-3-3-3-3-3-3-3-3-3-3-3-3-3-3-3-3-3--|
|----------------------------------------------------------------|
|----------------------------------------------------------------|
|----------------------------------------------------------------|
|-8-8-8-8-8-3-3-3-0-0-0-0-0-3-3-3-0-0-0-0-0-3-3-3-0-0-0-0-0-3-3--|

|-3-3-3----------||
|-3-3-3----------||
|----------------||
|----------------||
|----------------||
|-3-3-3----------||
A really big song by cliche_boy ... well, the verse part anyway.

e |-8-8-8-8-8-8-8-8-9-9-9-9-9-9-9-9-8-8-8-8-8-8-8-8-3-3-2-2-1-1----||
B |-8-8-8-8-8-8-8-8-9-9-9-9-9-9-9-9-8-8-8-8-8-8-8-8-3-3-2-2-1-1----||
G |----------------------------------------------------------------||
D |----------------------------------------------------------------||
A |----------------------------------------------------------------||
E |-8-8-8-8-8-8-8-8-9-9-9-9-9-9-9-9-8-8-8-8-8-8-8-8-3-3-2-2-1-1----||
And thats the lead-in thing to a solo/chorus/whatever, we havn't really decided yet.


e |-------------------------------------------0-0-0--0--0-0-0-||
B |-------------------------------------------2-2-2--3--3-3-3-||
G |-------------------------------------------2-2-2--3--3-3-3-||
D |-7-7-7-5--5-5--7-7-7-5--5-5--7-7-7-5--5-5--2-2-2--3--3-3-3-||
A |-7-7-7-5--5-5--7-7-7-5--5-5--7-7-7-5--5-5------------------||
E |-0-0-0-0--0-0--0-0-0-0--0-0--0-0-0-0--0-0------------------||
(x4) verse

e |-0-0-0--0-0-0--0-0-0--0-0-0--||
B |-5-5-5--7-7-7--5-5-5--3-3-3--||
G |-5-5-5--7-7-7--5-5-5--3-3-3--||
D |-5-5-5--7-7-7--5-5-5--3-3-3--||
A |-----------------------------||
E |-----------------------------||
(x4) chorus
I got jealous that I couldn't write a song, so I tried. Although it sounds like a Courtney Love/Hole song. The bits in the verse can be played as power-chords if you don't like the dischordance.


e |-9-9-9-7--7-7-7-4-4-4-5--0-0-0-0-0-0-0-0-||
B |-9-9-9-7--7-7-7-4-4-4-5--0-0-0-0-0-0-0-0-||
G |-----------------------------------------||
D |-----------------------------------------||
A |-----------------------------------------||
E |-----------------------------------------||
the last 0s can be played as 12s if that suits better. What are you talking about, they sound EXACTLY the same ;).
  • Post a new comment

    Error

    default userpic
  • 1 comment